ISO-10303-21;
HEADER;
FILE_DESCRIPTION(('Creo Elements/Direct Modeling STEP Export'),'2;1');
FILE_NAME(
'C:/Users/TECCAD~1/AppData/Local/Temp/0ln7uvk4pr4scb33496/0ln7uvk4pr4scb
43496','2019-03-22T 9:49:34',(''),(''),
'PTC Creo Elements/Direct Modeling STEP processor for AP214 (Solid Model
)',
'PTC Creo Elements/Direct Modeling 19.0E  27-Jun-2016 (C) Parametric Tec
hnology GmbH','');
FILE_SCHEMA(('AUTOMOTIVE_DESIGN { 1 0 10303 214 1 1 1 1 }'));
ENDSEC;
DATA;
#10=CARTESIAN_POINT('',(51.312048,46.825278,75.4284126040313));
#20=DIRECTION('',(0.,0.,1.));
#30=DIRECTION('',(0.,-1.,0.));
#40=AXIS2_PLACEMENT_3D('',#10,#20,#30);
#50=CYLINDRICAL_SURFACE('',#40,3.00000000000006);
#60=CARTESIAN_POINT('',(51.312048,43.8252779999999,75.4284126040313));
#70=DIRECTION('',(0.,0.,1.));
#80=VECTOR('',#70,1.);
#90=LINE('',#60,#80);
#100=CARTESIAN_POINT('',(51.312048,43.8252779999999,75.0057627386261));
#110=VERTEX_POINT('',#100);
#120=CARTESIAN_POINT('',(51.312048,43.8252779999999,76.1397374694365));
#130=VERTEX_POINT('',#120);
#140=EDGE_CURVE('',#110,#130,#90,.T.);
#150=ORIENTED_EDGE('',*,*,#140,.F.);
#160=CARTESIAN_POINT('',(51.312048,46.825278,76.1397374694365));
#170=DIRECTION('',(0.,0.,1.));
#180=DIRECTION('',(0.,1.,0.));
#190=AXIS2_PLACEMENT_3D('',#160,#170,#180);
#200=CIRCLE('',#190,3.00000000000006);
#210=CARTESIAN_POINT('',(51.312048,49.8252780000001,76.1397374694365));
#220=VERTEX_POINT('',#210);
#230=EDGE_CURVE('',#130,#220,#200,.T.);
#240=ORIENTED_EDGE('',*,*,#230,.F.);
#250=CARTESIAN_POINT('',(51.312048,49.8252780000001,75.4284126040313));
#260=DIRECTION('',(0.,0.,1.));
#270=VECTOR('',#260,1.);
#280=LINE('',#250,#270);
#290=CARTESIAN_POINT('',(51.312048,49.8252780000001,75.0057627386261));
#300=VERTEX_POINT('',#290);
#310=EDGE_CURVE('',#300,#220,#280,.T.);
#320=ORIENTED_EDGE('',*,*,#310,.T.);
#330=CARTESIAN_POINT('',(51.312048,46.825278,75.0057627386261));
#340=DIRECTION('',(0.,0.,1.));
#350=DIRECTION('',(0.,1.,0.));
#360=AXIS2_PLACEMENT_3D('',#330,#340,#350);
#370=CIRCLE('',#360,3.00000000000006);
#380=EDGE_CURVE('',#110,#300,#370,.T.);
#390=ORIENTED_EDGE('',*,*,#380,.T.);
#400=EDGE_LOOP('',(#390,#320,#240,#150));
#410=FACE_OUTER_BOUND('',#400,.T.);
#420=ADVANCED_FACE('',(#410),#50,.T.);
#430=CARTESIAN_POINT('',(51.312048,46.825278,75.0057627386261));
#440=DIRECTION('',(0.,0.,1.));
#450=DIRECTION('',(0.,-1.,0.));
#460=AXIS2_PLACEMENT_3D('',#430,#440,#450);
#470=CONICAL_SURFACE('',#460,3.00000000000006,1.04719755119669);
#480=CARTESIAN_POINT('',(51.312048,49.8252780000001,75.0057627386261));
#490=DIRECTION('',(0.,0.866025403784483,0.499999999999923));
#500=VECTOR('',#490,3.46410161513764);
#510=LINE('',#480,#500);
#520=CARTESIAN_POINT('',(51.312048,48.325278,74.1397373348418));
#530=VERTEX_POINT('',#520);
#540=EDGE_CURVE('',#530,#300,#510,.T.);
#550=ORIENTED_EDGE('',*,*,#540,.F.);
#560=EDGE_CURVE('',#300,#110,#370,.T.);
#570=ORIENTED_EDGE('',*,*,#560,.F.);
#580=CARTESIAN_POINT('',(51.312048,43.8252779999999,75.0057627386261));
#590=DIRECTION('',(0.,-0.866025403784483,0.499999999999923));
#600=VECTOR('',#590,3.46410161513764);
#610=LINE('',#580,#600);
#620=CARTESIAN_POINT('',(51.312048,45.325278,74.1397373348418));
#630=VERTEX_POINT('',#620);
#640=EDGE_CURVE('',#630,#110,#610,.T.);
#650=ORIENTED_EDGE('',*,*,#640,.T.);
#660=CARTESIAN_POINT('',(51.312048,46.825278,74.1397373348418));
#670=DIRECTION('',(0.,0.,1.));
#680=DIRECTION('',(0.,-1.,0.));
#690=AXIS2_PLACEMENT_3D('',#660,#670,#680);
#700=CIRCLE('',#690,1.5);
#710=EDGE_CURVE('',#530,#630,#700,.T.);
#720=ORIENTED_EDGE('',*,*,#710,.T.);
#730=EDGE_LOOP('',(#720,#650,#570,#550));
#740=FACE_OUTER_BOUND('',#730,.T.);
#750=ADVANCED_FACE('',(#740),#470,.T.);
#760=CARTESIAN_POINT('',(51.312048,46.825278,71.1397374694365));
#770=DIRECTION('',(0.,0.,1.));
#780=DIRECTION('',(0.,-1.,0.));
#790=AXIS2_PLACEMENT_3D('',#760,#770,#780);
#800=CYLINDRICAL_SURFACE('',#790,1.5);
#810=CARTESIAN_POINT('',(51.312048,46.825278,68.1397374694365));
#820=DIRECTION('',(0.,0.,-1.));
#830=DIRECTION('',(1.,0.,0.));
#840=AXIS2_PLACEMENT_3D('',#810,#820,#830);
#850=CIRCLE('',#840,1.50000000000001);
#860=CARTESIAN_POINT('',(52.812048,46.825278,68.1397374694365));
#870=VERTEX_POINT('',#860);
#880=CARTESIAN_POINT('',(51.312048,45.325278,68.1397374694365));
#890=VERTEX_POINT('',#880);
#900=EDGE_CURVE('',#870,#890,#850,.T.);
#910=ORIENTED_EDGE('',*,*,#900,.F.);
#920=CARTESIAN_POINT('',(51.312048,45.325278,71.1397374694365));
#930=DIRECTION('',(0.,0.,1.));
#940=VECTOR('',#930,1.);
#950=LINE('',#920,#940);
#960=EDGE_CURVE('',#890,#630,#950,.T.);
#970=ORIENTED_EDGE('',*,*,#960,.F.);
#980=EDGE_CURVE('',#630,#530,#700,.T.);
#990=ORIENTED_EDGE('',*,*,#980,.F.);
#1000=CARTESIAN_POINT('',(51.312048,48.325278,71.1397374694365));
#1010=DIRECTION('',(0.,0.,1.));
#1020=VECTOR('',#1010,1.);
#1030=LINE('',#1000,#1020);
#1040=CARTESIAN_POINT('',(51.312048,48.325278,68.1397374694365));
#1050=VERTEX_POINT('',#1040);
#1060=EDGE_CURVE('',#1050,#530,#1030,.T.);
#1070=ORIENTED_EDGE('',*,*,#1060,.T.);
#1080=EDGE_CURVE('',#1050,#870,#850,.T.);
#1090=ORIENTED_EDGE('',*,*,#1080,.F.);
#1100=EDGE_LOOP('',(#1090,#1070,#990,#970,#910));
#1110=FACE_OUTER_BOUND('',#1100,.T.);
#1120=ADVANCED_FACE('',(#1110),#800,.T.);
#1130=CARTESIAN_POINT('',(54.012048,46.825278,68.1397374694365));
#1140=DIRECTION('',(0.,0.,1.));
#1150=DIRECTION('',(1.,0.,0.));
#1160=AXIS2_PLACEMENT_3D('',#1130,#1140,#1150);
#1170=PLANE('',#1160);
#1180=EDGE_CURVE('',#890,#1050,#850,.T.);
#1190=ORIENTED_EDGE('',*,*,#1180,.T.);
#1200=ORIENTED_EDGE('',*,*,#900,.T.);
#1210=ORIENTED_EDGE('',*,*,#1080,.T.);
#1220=EDGE_LOOP('',(#1210,#1200,#1190));
#1230=FACE_BOUND('',#1220,.T.);
#1240=CARTESIAN_POINT('',(51.312048,46.825278,68.1397374694365));
#1250=DIRECTION('',(0.,0.,1.));
#1260=DIRECTION('',(1.,0.,0.));
#1270=AXIS2_PLACEMENT_3D('',#1240,#1250,#1260);
#1280=CIRCLE('',#1270,2.00000000000006);
#1290=CARTESIAN_POINT('',(53.312048,46.825278,68.1397374694365));
#1300=VERTEX_POINT('',#1290);
#1310=CARTESIAN_POINT('',(49.3120479999999,46.825278,68.1397374694365));
#1320=VERTEX_POINT('',#1310);
#1330=EDGE_CURVE('',#1300,#1320,#1280,.T.);
#1340=ORIENTED_EDGE('',*,*,#1330,.T.);
#1350=CARTESIAN_POINT('',(51.312048,44.8252779999999,68.1397374694365));
#1360=VERTEX_POINT('',#1350);
#1370=EDGE_CURVE('',#1360,#1300,#1280,.T.);
#1380=ORIENTED_EDGE('',*,*,#1370,.T.);
#1390=EDGE_CURVE('',#1320,#1360,#1280,.T.);
#1400=ORIENTED_EDGE('',*,*,#1390,.T.);
#1410=EDGE_LOOP('',(#1400,#1380,#1340));
#1420=FACE_OUTER_BOUND('',#1410,.T.);
#1430=ADVANCED_FACE('',(#1230,#1420),#1170,.T.);
#1440=CARTESIAN_POINT('',(51.312048,46.825278,66.4397374694366));
#1450=DIRECTION('',(0.,0.,1.));
#1460=DIRECTION('',(0.,-1.,0.));
#1470=AXIS2_PLACEMENT_3D('',#1440,#1450,#1460);
#1480=CYLINDRICAL_SURFACE('',#1470,3.00000000000006);
#1490=CARTESIAN_POINT('',(51.312048,43.8252779999999,66.4397374694366));
#1500=DIRECTION('',(0.,0.,1.));
#1510=VECTOR('',#1500,1.);
#1520=LINE('',#1490,#1510);
#1530=CARTESIAN_POINT('',(51.312048,43.8252779999999,65.7397374694365));
#1540=VERTEX_POINT('',#1530);
#1550=CARTESIAN_POINT('',(51.312048,43.8252779999999,67.1397374694365));
#1560=VERTEX_POINT('',#1550);
#1570=EDGE_CURVE('',#1540,#1560,#1520,.T.);
#1580=ORIENTED_EDGE('',*,*,#1570,.F.);
#1590=CARTESIAN_POINT('',(51.312048,46.825278,67.1397374694365));
#1600=DIRECTION('',(0.,0.,1.));
#1610=DIRECTION('',(1.,0.,0.));
#1620=AXIS2_PLACEMENT_3D('',#1590,#1600,#1610);
#1630=CIRCLE('',#1620,3.00000000000006);
#1640=CARTESIAN_POINT('',(54.312048,46.825278,67.1397374694365));
#1650=VERTEX_POINT('',#1640);
#1660=EDGE_CURVE('',#1560,#1650,#1630,.T.);
#1670=ORIENTED_EDGE('',*,*,#1660,.F.);
#1680=CARTESIAN_POINT('',(51.312048,49.8252780000001,67.1397374694365));
#1690=VERTEX_POINT('',#1680);
#1700=EDGE_CURVE('',#1650,#1690,#1630,.T.);
#1710=ORIENTED_EDGE('',*,*,#1700,.F.);
#1720=CARTESIAN_POINT('',(51.312048,49.8252780000001,66.4397374694366));
#1730=DIRECTION('',(0.,0.,1.));
#1740=VECTOR('',#1730,1.);
#1750=LINE('',#1720,#1740);
#1760=CARTESIAN_POINT('',(51.312048,49.8252780000001,65.7397374694365));
#1770=VERTEX_POINT('',#1760);
#1780=EDGE_CURVE('',#1770,#1690,#1750,.T.);
#1790=ORIENTED_EDGE('',*,*,#1780,.T.);
#1800=CARTESIAN_POINT('',(51.312048,46.825278,65.7397374694365));
#1810=DIRECTION('',(0.,0.,1.));
#1820=DIRECTION('',(0.,1.,0.));
#1830=AXIS2_PLACEMENT_3D('',#1800,#1810,#1820);
#1840=CIRCLE('',#1830,3.00000000000006);
#1850=EDGE_CURVE('',#1540,#1770,#1840,.T.);
#1860=ORIENTED_EDGE('',*,*,#1850,.T.);
#1870=EDGE_LOOP('',(#1860,#1790,#1710,#1670,#1580));
#1880=FACE_OUTER_BOUND('',#1870,.T.);
#1890=ADVANCED_FACE('',(#1880),#1480,.T.);
#1900=CARTESIAN_POINT('',(51.312048,46.825278,65.7397374694365));
#1910=DIRECTION('',(0.,0.,1.));
#1920=DIRECTION('',(0.,-1.,0.));
#1930=AXIS2_PLACEMENT_3D('',#1900,#1910,#1920);
#1940=CONICAL_SURFACE('',#1930,3.00000000000006,0.785398163397457);
#1950=CARTESIAN_POINT('',(51.312048,49.8252780000001,65.7397374694365));
#1960=DIRECTION('',(0.,0.707106781186553,0.707106781186542));
#1970=VECTOR('',#1960,4.24264068711933);
#1980=LINE('',#1950,#1970);
#1990=CARTESIAN_POINT('',(51.312048,48.8252780000001,64.7397374694366));
#2000=VERTEX_POINT('',#1990);
#2010=EDGE_CURVE('',#2000,#1770,#1980,.T.);
#2020=ORIENTED_EDGE('',*,*,#2010,.F.);
#2030=EDGE_CURVE('',#1770,#1540,#1840,.T.);
#2040=ORIENTED_EDGE('',*,*,#2030,.F.);
#2050=CARTESIAN_POINT('',(51.312048,43.8252779999999,65.7397374694365));
#2060=DIRECTION('',(0.,-0.707106781186553,0.707106781186542));
#2070=VECTOR('',#2060,4.24264068711933);
#2080=LINE('',#2050,#2070);
#2090=CARTESIAN_POINT('',(51.312048,44.8252779999999,64.7397374694366));
#2100=VERTEX_POINT('',#2090);
#2110=EDGE_CURVE('',#2100,#1540,#2080,.T.);
#2120=ORIENTED_EDGE('',*,*,#2110,.T.);
#2130=CARTESIAN_POINT('',(51.312048,46.825278,64.7397374694366));
#2140=DIRECTION('',(0.,0.,1.));
#2150=DIRECTION('',(0.,-1.,0.));
#2160=AXIS2_PLACEMENT_3D('',#2130,#2140,#2150);
#2170=CIRCLE('',#2160,2.00000000000011);
#2180=EDGE_CURVE('',#2000,#2100,#2170,.T.);
#2190=ORIENTED_EDGE('',*,*,#2180,.T.);
#2200=EDGE_LOOP('',(#2190,#2120,#2040,#2020));
#2210=FACE_OUTER_BOUND('',#2200,.T.);
#2220=ADVANCED_FACE('',(#2210),#1940,.T.);
#2230=CARTESIAN_POINT('',(51.312048,46.825278,49.1397374694366));
#2240=DIRECTION('',(0.,0.,-1.));
#2250=DIRECTION('',(-1.,0.,0.));
#2260=AXIS2_PLACEMENT_3D('',#2230,#2240,#2250);
#2270=SPHERICAL_SURFACE('',#2260,2.);
#2280=CARTESIAN_POINT('',(51.312048,46.825278,49.1397374694366));
#2290=DIRECTION('',(0.,1.,0.));
#2300=DIRECTION('',(1.,0.,0.));
#2310=AXIS2_PLACEMENT_3D('',#2280,#2290,#2300);
#2320=CIRCLE('',#2310,2.);
#2330=CARTESIAN_POINT('',(53.312048,46.825278,49.1397374694366));
#2340=VERTEX_POINT('',#2330);
#2350=CARTESIAN_POINT('',(51.312048,46.825278,47.1397374694366));
#2360=VERTEX_POINT('',#2350);
#2370=EDGE_CURVE('',#2340,#2360,#2320,.T.);
#2380=ORIENTED_EDGE('',*,*,#2370,.F.);
#2390=CARTESIAN_POINT('',(49.312048,46.825278,49.1397374694366));
#2400=VERTEX_POINT('',#2390);
#2410=EDGE_CURVE('',#2360,#2400,#2320,.T.);
#2420=ORIENTED_EDGE('',*,*,#2410,.F.);
#2430=CARTESIAN_POINT('',(51.312048,46.825278,49.1397374694366));
#2440=DIRECTION('',(0.,0.,1.));
#2450=DIRECTION('',(0.,-1.,0.));
#2460=AXIS2_PLACEMENT_3D('',#2430,#2440,#2450);
#2470=CIRCLE('',#2460,2.00000000000011);
#2480=CARTESIAN_POINT('',(51.312048,44.8252779999999,49.1397374694366));
#2490=VERTEX_POINT('',#2480);
#2500=EDGE_CURVE('',#2400,#2490,#2470,.T.);
#2510=ORIENTED_EDGE('',*,*,#2500,.F.);
#2520=EDGE_CURVE('',#2490,#2340,#2470,.T.);
#2530=ORIENTED_EDGE('',*,*,#2520,.F.);
#2540=EDGE_LOOP('',(#2530,#2510,#2420,#2380));
#2550=FACE_OUTER_BOUND('',#2540,.T.);
#2560=ADVANCED_FACE('',(#2550),#2270,.T.);
#2570=CARTESIAN_POINT('',(51.312048,49.4502780000001,76.1397374694365));
#2580=DIRECTION('',(-0.,0.,1.));
#2590=DIRECTION('',(0.,-1.,0.));
#2600=AXIS2_PLACEMENT_3D('',#2570,#2580,#2590);
#2610=PLANE('',#2600);
#2620=CARTESIAN_POINT('',(51.312048,46.825278,76.1397374694365));
#2630=DIRECTION('',(0.,0.,-1.));
#2640=DIRECTION('',(-1.,0.,0.));
#2650=AXIS2_PLACEMENT_3D('',#2620,#2630,#2640);
#2660=CIRCLE('',#2650,1.8);
#2670=CARTESIAN_POINT('',(53.112048,46.825278,76.1397374694365));
#2680=VERTEX_POINT('',#2670);
#2690=CARTESIAN_POINT('',(49.512048,46.825278,76.1397374694365));
#2700=VERTEX_POINT('',#2690);
#2710=EDGE_CURVE('',#2680,#2700,#2660,.T.);
#2720=ORIENTED_EDGE('',*,*,#2710,.T.);
#2730=CARTESIAN_POINT('',(51.312048,48.625278,76.1397374694365));
#2740=VERTEX_POINT('',#2730);
#2750=EDGE_CURVE('',#2740,#2680,#2660,.T.);
#2760=ORIENTED_EDGE('',*,*,#2750,.T.);
#2770=EDGE_CURVE('',#2700,#2740,#2660,.T.);
#2780=ORIENTED_EDGE('',*,*,#2770,.T.);
#2790=EDGE_LOOP('',(#2780,#2760,#2720));
#2800=FACE_BOUND('',#2790,.T.);
#2810=EDGE_CURVE('',#220,#130,#200,.T.);
#2820=ORIENTED_EDGE('',*,*,#2810,.T.);
#2830=ORIENTED_EDGE('',*,*,#230,.T.);
#2840=EDGE_LOOP('',(#2830,#2820));
#2850=FACE_OUTER_BOUND('',#2840,.T.);
#2860=ADVANCED_FACE('',(#2800,#2850),#2610,.T.);
#2870=CARTESIAN_POINT('',(51.312048,46.825278,67.1397374694365));
#2880=DIRECTION('',(0.,0.,1.));
#2890=DIRECTION('',(1.,0.,0.));
#2900=AXIS2_PLACEMENT_3D('',#2870,#2880,#2890);
#2910=TOROIDAL_SURFACE('',#2900,2.00000000000006,1.);
#2920=ORIENTED_EDGE('',*,*,#1370,.F.);
#2930=CARTESIAN_POINT('',(53.312048,46.825278,67.1397374694365));
#2940=DIRECTION('',(0.,1.,0.));
#2950=DIRECTION('',(-1.,0.,0.));
#2960=AXIS2_PLACEMENT_3D('',#2930,#2940,#2950);
#2970=CIRCLE('',#2960,1.);
#2980=EDGE_CURVE('',#1300,#1650,#2970,.T.);
#2990=ORIENTED_EDGE('',*,*,#2980,.F.);
#3000=ORIENTED_EDGE('',*,*,#1660,.T.);
#3010=CARTESIAN_POINT('',(48.3120479999999,46.825278,67.1397374694365));
#3020=VERTEX_POINT('',#3010);
#3030=EDGE_CURVE('',#3020,#1560,#1630,.T.);
#3040=ORIENTED_EDGE('',*,*,#3030,.T.);
#3050=CARTESIAN_POINT('',(49.3120479999999,46.825278,67.1397374694365));
#3060=DIRECTION('',(0.,-1.,0.));
#3070=DIRECTION('',(1.,0.,0.));
#3080=AXIS2_PLACEMENT_3D('',#3050,#3060,#3070);
#3090=CIRCLE('',#3080,1.);
#3100=EDGE_CURVE('',#1320,#3020,#3090,.T.);
#3110=ORIENTED_EDGE('',*,*,#3100,.T.);
#3120=ORIENTED_EDGE('',*,*,#1390,.F.);
#3130=EDGE_LOOP('',(#3120,#3110,#3040,#3000,#2990,#2920));
#3140=FACE_OUTER_BOUND('',#3130,.T.);
#3150=ADVANCED_FACE('',(#3140),#2910,.T.);
#3160=CARTESIAN_POINT('',(51.312048,46.825278,67.1397374694365));
#3170=DIRECTION('',(0.,0.,1.));
#3180=DIRECTION('',(-1.,0.,0.));
#3190=AXIS2_PLACEMENT_3D('',#3160,#3170,#3180);
#3200=PLANE('',#3190);
#3210=CARTESIAN_POINT('',(51.312048,46.825278,67.1397374694365));
#3220=DIRECTION('',(0.,0.,-1.));
#3230=DIRECTION('',(0.,1.,0.));
#3240=AXIS2_PLACEMENT_3D('',#3210,#3220,#3230);
#3250=CIRCLE('',#3240,0.9);
#3260=CARTESIAN_POINT('',(50.412048,46.825278,67.1397374694365));
#3270=VERTEX_POINT('',#3260);
#3280=CARTESIAN_POINT('',(51.312048,47.725278,67.1397374694365));
#3290=VERTEX_POINT('',#3280);
#3300=EDGE_CURVE('',#3270,#3290,#3250,.T.);
#3310=ORIENTED_EDGE('',*,*,#3300,.F.);
#3320=CARTESIAN_POINT('',(51.312048,45.925278,67.1397374694365));
#3330=VERTEX_POINT('',#3320);
#3340=EDGE_CURVE('',#3290,#3330,#3250,.T.);
#3350=ORIENTED_EDGE('',*,*,#3340,.F.);
#3360=EDGE_CURVE('',#3330,#3270,#3250,.T.);
#3370=ORIENTED_EDGE('',*,*,#3360,.F.);
#3380=EDGE_LOOP('',(#3370,#3350,#3310));
#3390=FACE_OUTER_BOUND('',#3380,.T.);
#3400=ADVANCED_FACE('',(#3390),#3200,.T.);
#3410=CARTESIAN_POINT('',(51.312048,46.825278,56.4361840788433));
#3420=DIRECTION('',(0.,0.,1.));
#3430=DIRECTION('',(0.,-1.,0.));
#3440=AXIS2_PLACEMENT_3D('',#3410,#3420,#3430);
#3450=CYLINDRICAL_SURFACE('',#3440,2.00000000000011);
#3460=CARTESIAN_POINT('',(51.312048,44.8252779999999,56.4361840788433));
#3470=DIRECTION('',(0.,0.,1.));
#3480=VECTOR('',#3470,1.);
#3490=LINE('',#3460,#3480);
#3500=CARTESIAN_POINT('',(51.312048,44.8252779999999,53.1397374694365));
#3510=VERTEX_POINT('',#3500);
#3520=EDGE_CURVE('',#2490,#3510,#3490,.T.);
#3530=ORIENTED_EDGE('',*,*,#3520,.F.);
#3540=CARTESIAN_POINT('',(51.312048,46.825278,53.1397374694365));
#3550=DIRECTION('',(0.,0.,1.));
#3560=DIRECTION('',(0.,-1.,0.));
#3570=AXIS2_PLACEMENT_3D('',#3540,#3550,#3560);
#3580=CIRCLE('',#3570,2.00000000000011);
#3590=CARTESIAN_POINT('',(51.312048,48.8252780000001,53.1397374694365));
#3600=VERTEX_POINT('',#3590);
#3610=EDGE_CURVE('',#3510,#3600,#3580,.T.);
#3620=ORIENTED_EDGE('',*,*,#3610,.F.);
#3630=CARTESIAN_POINT('',(51.312048,48.8252780000001,56.4361840788433));
#3640=DIRECTION('',(0.,0.,1.));
#3650=VECTOR('',#3640,1.);
#3660=LINE('',#3630,#3650);
#3670=CARTESIAN_POINT('',(51.312048,48.8252780000001,49.1397374694366));
#3680=VERTEX_POINT('',#3670);
#3690=EDGE_CURVE('',#3680,#3600,#3660,.T.);
#3700=ORIENTED_EDGE('',*,*,#3690,.T.);
#3710=EDGE_CURVE('',#2340,#3680,#2470,.T.);
#3720=ORIENTED_EDGE('',*,*,#3710,.T.);
#3730=ORIENTED_EDGE('',*,*,#2520,.T.);
#3740=EDGE_LOOP('',(#3730,#3720,#3700,#3620,#3530));
#3750=FACE_OUTER_BOUND('',#3740,.T.);
#3760=ADVANCED_FACE('',(#3750),#3450,.T.);
#3770=CARTESIAN_POINT('',(51.312048,46.825278,74.5808917426245));
#3780=DIRECTION('',(0.,0.,1.));
#3790=DIRECTION('',(1.,0.,0.));
#3800=AXIS2_PLACEMENT_3D('',#3770,#3780,#3790);
#3810=CONICAL_SURFACE('',#3800,0.9,0.523598775598297);
#3820=CARTESIAN_POINT('',(50.412048,46.825278,74.5808917426245));
#3830=DIRECTION('',(-0.499999999999998,0.,0.86602540378444));
#3840=VECTOR('',#3830,1.8);
#3850=LINE('',#3820,#3840);
#3860=CARTESIAN_POINT('',(50.412048,46.825278,74.5808917426245));
#3870=VERTEX_POINT('',#3860);
#3880=EDGE_CURVE('',#3870,#2700,#3850,.T.);
#3890=ORIENTED_EDGE('',*,*,#3880,.F.);
#3900=ORIENTED_EDGE('',*,*,#2770,.F.);
#3910=ORIENTED_EDGE('',*,*,#2750,.F.);
#3920=CARTESIAN_POINT('',(52.212048,46.825278,74.5808917426245));
#3930=DIRECTION('',(0.499999999999998,0.,0.86602540378444));
#3940=VECTOR('',#3930,1.8);
#3950=LINE('',#3920,#3940);
#3960=CARTESIAN_POINT('',(52.212048,46.825278,74.5808917426245));
#3970=VERTEX_POINT('',#3960);
#3980=EDGE_CURVE('',#3970,#2680,#3950,.T.);
#3990=ORIENTED_EDGE('',*,*,#3980,.T.);
#4000=CARTESIAN_POINT('',(51.312048,46.825278,74.5808917426245));
#4010=DIRECTION('',(0.,0.,-1.));
#4020=DIRECTION('',(-1.,0.,0.));
#4030=AXIS2_PLACEMENT_3D('',#4000,#4010,#4020);
#4040=CIRCLE('',#4030,0.9);
#4050=CARTESIAN_POINT('',(51.312048,47.725278,74.5808917426245));
#4060=VERTEX_POINT('',#4050);
#4070=EDGE_CURVE('',#4060,#3970,#4040,.T.);
#4080=ORIENTED_EDGE('',*,*,#4070,.T.);
#4090=EDGE_CURVE('',#3870,#4060,#4040,.T.);
#4100=ORIENTED_EDGE('',*,*,#4090,.T.);
#4110=EDGE_LOOP('',(#4100,#4080,#3990,#3910,#3900,#3890));
#4120=FACE_OUTER_BOUND('',#4110,.T.);
#4130=ADVANCED_FACE('',(#4120),#3810,.F.);
#4140=CARTESIAN_POINT('',(51.312048,46.825278,70.6252665113144));
#4150=DIRECTION('',(0.,0.,-1.));
#4160=DIRECTION('',(0.,1.,0.));
#4170=AXIS2_PLACEMENT_3D('',#4140,#4150,#4160);
#4180=CYLINDRICAL_SURFACE('',#4170,0.9);
#4190=CARTESIAN_POINT('',(51.312048,47.725278,70.6252665113144));
#4200=DIRECTION('',(0.,0.,-1.));
#4210=VECTOR('',#4200,1.);
#4220=LINE('',#4190,#4210);
#4230=EDGE_CURVE('',#4060,#3290,#4220,.T.);
#4240=ORIENTED_EDGE('',*,*,#4230,.F.);
#4250=ORIENTED_EDGE('',*,*,#3300,.T.);
#4260=ORIENTED_EDGE('',*,*,#3360,.T.);
#4270=CARTESIAN_POINT('',(51.312048,45.925278,70.6252665113144));
#4280=DIRECTION('',(0.,0.,-1.));
#4290=VECTOR('',#4280,1.);
#4300=LINE('',#4270,#4290);
#4310=CARTESIAN_POINT('',(51.312048,45.925278,74.5808917426245));
#4320=VERTEX_POINT('',#4310);
#4330=EDGE_CURVE('',#4320,#3330,#4300,.T.);
#4340=ORIENTED_EDGE('',*,*,#4330,.T.);
#4350=EDGE_CURVE('',#4320,#3870,#4040,.T.);
#4360=ORIENTED_EDGE('',*,*,#4350,.F.);
#4370=ORIENTED_EDGE('',*,*,#4090,.F.);
#4380=EDGE_LOOP('',(#4370,#4360,#4340,#4260,#4250,#4240));
#4390=FACE_OUTER_BOUND('',#4380,.T.);
#4400=ADVANCED_FACE('',(#4390),#4180,.F.);
#4410=CARTESIAN_POINT('',(51.312048,46.825278,56.4361840788433));
#4420=DIRECTION('',(0.,0.,1.));
#4430=DIRECTION('',(0.,-1.,0.));
#4440=AXIS2_PLACEMENT_3D('',#4410,#4420,#4430);
#4450=CYLINDRICAL_SURFACE('',#4440,2.00000000000011);
#4460=CARTESIAN_POINT('',(51.312048,48.8252780000001,56.4361840788433));
#4470=DIRECTION('',(0.,0.,1.));
#4480=VECTOR('',#4470,1.);
#4490=LINE('',#4460,#4480);
#4500=EDGE_CURVE('',#3600,#2000,#4490,.T.);
#4510=ORIENTED_EDGE('',*,*,#4500,.F.);
#4520=ORIENTED_EDGE('',*,*,#2180,.F.);
#4530=CARTESIAN_POINT('',(51.312048,44.8252779999999,56.4361840788433));
#4540=DIRECTION('',(0.,0.,1.));
#4550=VECTOR('',#4540,1.);
#4560=LINE('',#4530,#4550);
#4570=EDGE_CURVE('',#3510,#2100,#4560,.T.);
#4580=ORIENTED_EDGE('',*,*,#4570,.T.);
#4590=EDGE_CURVE('',#3600,#3510,#3580,.T.);
#4600=ORIENTED_EDGE('',*,*,#4590,.T.);
#4610=EDGE_LOOP('',(#4600,#4580,#4520,#4510));
#4620=FACE_OUTER_BOUND('',#4610,.T.);
#4630=ADVANCED_FACE('',(#4620),#4450,.T.);
#4640=CARTESIAN_POINT('',(51.312048,46.825278,65.7397374694365));
#4650=DIRECTION('',(0.,0.,1.));
#4660=DIRECTION('',(0.,-1.,0.));
#4670=AXIS2_PLACEMENT_3D('',#4640,#4650,#4660);
#4680=CONICAL_SURFACE('',#4670,3.00000000000006,0.785398163397457);
#4690=ORIENTED_EDGE('',*,*,#2010,.T.);
#4700=EDGE_CURVE('',#2100,#2000,#2170,.T.);
#4710=ORIENTED_EDGE('',*,*,#4700,.T.);
#4720=ORIENTED_EDGE('',*,*,#2110,.F.);
#4730=ORIENTED_EDGE('',*,*,#1850,.F.);
#4740=EDGE_LOOP('',(#4730,#4720,#4710,#4690));
#4750=FACE_OUTER_BOUND('',#4740,.T.);
#4760=ADVANCED_FACE('',(#4750),#4680,.T.);
#4770=CARTESIAN_POINT('',(51.312048,46.825278,70.6252665113144));
#4780=DIRECTION('',(0.,0.,-1.));
#4790=DIRECTION('',(0.,1.,0.));
#4800=AXIS2_PLACEMENT_3D('',#4770,#4780,#4790);
#4810=CYLINDRICAL_SURFACE('',#4800,0.9);
#4820=ORIENTED_EDGE('',*,*,#4070,.F.);
#4830=EDGE_CURVE('',#3970,#4320,#4040,.T.);
#4840=ORIENTED_EDGE('',*,*,#4830,.F.);
#4850=ORIENTED_EDGE('',*,*,#4330,.F.);
#4860=ORIENTED_EDGE('',*,*,#3340,.T.);
#4870=ORIENTED_EDGE('',*,*,#4230,.T.);
#4880=EDGE_LOOP('',(#4870,#4860,#4850,#4840,#4820));
#4890=FACE_OUTER_BOUND('',#4880,.T.);
#4900=ADVANCED_FACE('',(#4890),#4810,.F.);
#4910=CARTESIAN_POINT('',(51.312048,46.825278,75.4284126040313));
#4920=DIRECTION('',(0.,0.,1.));
#4930=DIRECTION('',(0.,-1.,0.));
#4940=AXIS2_PLACEMENT_3D('',#4910,#4920,#4930);
#4950=CYLINDRICAL_SURFACE('',#4940,3.00000000000006);
#4960=ORIENTED_EDGE('',*,*,#560,.T.);
#4970=ORIENTED_EDGE('',*,*,#310,.F.);
#4980=ORIENTED_EDGE('',*,*,#2810,.F.);
#4990=ORIENTED_EDGE('',*,*,#140,.T.);
#5000=EDGE_LOOP('',(#4990,#4980,#4970,#4960));
#5010=FACE_OUTER_BOUND('',#5000,.T.);
#5020=ADVANCED_FACE('',(#5010),#4950,.T.);
#5030=ORIENTED_EDGE('',*,*,#4700,.F.);
#5040=ORIENTED_EDGE('',*,*,#4500,.T.);
#5050=ORIENTED_EDGE('',*,*,#3610,.T.);
#5060=ORIENTED_EDGE('',*,*,#4570,.F.);
#5070=EDGE_LOOP('',(#5060,#5050,#5040,#5030));
#5080=FACE_OUTER_BOUND('',#5070,.T.);
#5090=ADVANCED_FACE('',(#5080),#3450,.T.);
#5100=CARTESIAN_POINT('',(51.312048,46.825278,71.1397374694365));
#5110=DIRECTION('',(0.,0.,1.));
#5120=DIRECTION('',(0.,-1.,0.));
#5130=AXIS2_PLACEMENT_3D('',#5100,#5110,#5120);
#5140=CYLINDRICAL_SURFACE('',#5130,1.5);
#5150=ORIENTED_EDGE('',*,*,#960,.T.);
#5160=ORIENTED_EDGE('',*,*,#1180,.F.);
#5170=ORIENTED_EDGE('',*,*,#1060,.F.);
#5180=ORIENTED_EDGE('',*,*,#710,.F.);
#5190=EDGE_LOOP('',(#5180,#5170,#5160,#5150));
#5200=FACE_OUTER_BOUND('',#5190,.T.);
#5210=ADVANCED_FACE('',(#5200),#5140,.T.);
#5220=ORIENTED_EDGE('',*,*,#3520,.T.);
#5230=ORIENTED_EDGE('',*,*,#2500,.T.);
#5240=EDGE_CURVE('',#3680,#2400,#2470,.T.);
#5250=ORIENTED_EDGE('',*,*,#5240,.T.);
#5260=ORIENTED_EDGE('',*,*,#3690,.F.);
#5270=ORIENTED_EDGE('',*,*,#4590,.F.);
#5280=EDGE_LOOP('',(#5270,#5260,#5250,#5230,#5220));
#5290=FACE_OUTER_BOUND('',#5280,.T.);
#5300=ADVANCED_FACE('',(#5290),#4450,.T.);
#5310=CARTESIAN_POINT('',(51.312048,46.825278,66.4397374694366));
#5320=DIRECTION('',(0.,0.,1.));
#5330=DIRECTION('',(0.,-1.,0.));
#5340=AXIS2_PLACEMENT_3D('',#5310,#5320,#5330);
#5350=CYLINDRICAL_SURFACE('',#5340,3.00000000000006);
#5360=ORIENTED_EDGE('',*,*,#1570,.T.);
#5370=ORIENTED_EDGE('',*,*,#2030,.T.);
#5380=ORIENTED_EDGE('',*,*,#1780,.F.);
#5390=EDGE_CURVE('',#1690,#3020,#1630,.T.);
#5400=ORIENTED_EDGE('',*,*,#5390,.F.);
#5410=ORIENTED_EDGE('',*,*,#3030,.F.);
#5420=EDGE_LOOP('',(#5410,#5400,#5380,#5370,#5360));
#5430=FACE_OUTER_BOUND('',#5420,.T.);
#5440=ADVANCED_FACE('',(#5430),#5350,.T.);
#5450=CARTESIAN_POINT('',(51.312048,46.825278,74.5808917426245));
#5460=DIRECTION('',(0.,0.,1.));
#5470=DIRECTION('',(1.,0.,0.));
#5480=AXIS2_PLACEMENT_3D('',#5450,#5460,#5470);
#5490=CONICAL_SURFACE('',#5480,0.9,0.523598775598297);
#5500=ORIENTED_EDGE('',*,*,#4350,.T.);
#5510=ORIENTED_EDGE('',*,*,#4830,.T.);
#5520=ORIENTED_EDGE('',*,*,#3980,.F.);
#5530=ORIENTED_EDGE('',*,*,#2710,.F.);
#5540=ORIENTED_EDGE('',*,*,#3880,.T.);
#5550=EDGE_LOOP('',(#5540,#5530,#5520,#5510,#5500));
#5560=FACE_OUTER_BOUND('',#5550,.T.);
#5570=ADVANCED_FACE('',(#5560),#5490,.F.);
#5580=CARTESIAN_POINT('',(51.312048,46.825278,75.0057627386261));
#5590=DIRECTION('',(0.,0.,1.));
#5600=DIRECTION('',(0.,-1.,0.));
#5610=AXIS2_PLACEMENT_3D('',#5580,#5590,#5600);
#5620=CONICAL_SURFACE('',#5610,3.00000000000006,1.04719755119669);
#5630=ORIENTED_EDGE('',*,*,#540,.T.);
#5640=ORIENTED_EDGE('',*,*,#980,.T.);
#5650=ORIENTED_EDGE('',*,*,#640,.F.);
#5660=ORIENTED_EDGE('',*,*,#380,.F.);
#5670=EDGE_LOOP('',(#5660,#5650,#5640,#5630));
#5680=FACE_OUTER_BOUND('',#5670,.T.);
#5690=ADVANCED_FACE('',(#5680),#5620,.T.);
#5700=CARTESIAN_POINT('',(51.312048,46.825278,67.1397374694365));
#5710=DIRECTION('',(0.,0.,1.));
#5720=DIRECTION('',(1.,0.,0.));
#5730=AXIS2_PLACEMENT_3D('',#5700,#5710,#5720);
#5740=TOROIDAL_SURFACE('',#5730,2.00000000000006,1.);
#5750=ORIENTED_EDGE('',*,*,#1330,.F.);
#5760=ORIENTED_EDGE('',*,*,#3100,.F.);
#5770=ORIENTED_EDGE('',*,*,#5390,.T.);
#5780=ORIENTED_EDGE('',*,*,#1700,.T.);
#5790=ORIENTED_EDGE('',*,*,#2980,.T.);
#5800=EDGE_LOOP('',(#5790,#5780,#5770,#5760,#5750));
#5810=FACE_OUTER_BOUND('',#5800,.T.);
#5820=ADVANCED_FACE('',(#5810),#5740,.T.);
#5830=CARTESIAN_POINT('',(51.312048,46.825278,49.1397374694366));
#5840=DIRECTION('',(0.,0.,-1.));
#5850=DIRECTION('',(-1.,0.,0.));
#5860=AXIS2_PLACEMENT_3D('',#5830,#5840,#5850);
#5870=SPHERICAL_SURFACE('',#5860,2.);
#5880=ORIENTED_EDGE('',*,*,#3710,.F.);
#5890=ORIENTED_EDGE('',*,*,#5240,.F.);
#5900=ORIENTED_EDGE('',*,*,#2410,.T.);
#5910=ORIENTED_EDGE('',*,*,#2370,.T.);
#5920=EDGE_LOOP('',(#5910,#5900,#5890,#5880));
#5930=FACE_OUTER_BOUND('',#5920,.T.);
#5940=ADVANCED_FACE('',(#5930),#5870,.T.);
#5950=CLOSED_SHELL('',(#420,#750,#1120,#1430,#1890,#2220,#2560,#2860,
#3150,#3400,#3760,#4130,#4400,#4630,#4760,#4900,#5020,#5090,#5210,#5300,
#5440,#5570,#5690,#5820,#5940));
#5960=MANIFOLD_SOLID_BREP('',#5950);
#5970=CARTESIAN_POINT('',(0.,0.,0.));
#5980=DIRECTION('',(0.,0.,1.));
#5990=DIRECTION('',(1.,0.,0.));
#6000=AXIS2_PLACEMENT_3D('',#5970,#5980,#5990);
#6010=APPLICATION_CONTEXT(' ');
#6020=APPLICATION_PROTOCOL_DEFINITION(' ','automotive_design',1998,#6010
);
#6030=PRODUCT_CONTEXT('',#6010,'mechanical');
#6040=PRODUCT_DEFINITION_CONTEXT('part definition',#6010,'design');
#6050=PRODUCT('RXM2D_1-5','RXM2D_1-5','',(#6030));
#6060=PRODUCT_RELATED_PRODUCT_CATEGORY('part',' ',(#6050));
#6070=PRODUCT_DEFINITION_FORMATION_WITH_SPECIFIED_SOURCE('','',#6050,
.BOUGHT.);
#6080=PRODUCT_DEFINITION('',' ',#6070,#6040);
#6090=PRODUCT_DEFINITION_SHAPE('','',#6080);
#6100=DIMENSIONAL_EXPONENTS(1.,0.,0.,0.,0.,0.,0.);
#6110=DIMENSIONAL_EXPONENTS(0.,0.,0.,0.,0.,0.,0.);
#6120=DIMENSIONAL_EXPONENTS(0.,0.,0.,0.,0.,0.,0.);
#6130=(LENGTH_UNIT() NAMED_UNIT(*) SI_UNIT(.MILLI.,.METRE.));
#6140=(NAMED_UNIT(*) PLANE_ANGLE_UNIT() SI_UNIT($,.RADIAN.));
#6150=(NAMED_UNIT(*) SI_UNIT($,.STERADIAN.) SOLID_ANGLE_UNIT());
#6160=(GEOMETRIC_REPRESENTATION_CONTEXT(3) 
GLOBAL_UNCERTAINTY_ASSIGNED_CONTEXT((#6170)) 
GLOBAL_UNIT_ASSIGNED_CONTEXT((#6130,#6140,#6150)) REPRESENTATION_CONTEXT
('',''));
#6170=UNCERTAINTY_MEASURE_WITH_UNIT(LENGTH_MEASURE(1.E-6),#6130,
'distance_accuracy_value','maximum gap value');
#6180=ADVANCED_BREP_SHAPE_REPRESENTATION('',(#6000,#5960),#6160);
#6190=SHAPE_DEFINITION_REPRESENTATION(#6090,#6180);
#6200=COLOUR_RGB('',1.,0.784313797950745,0.);
#6210=FILL_AREA_STYLE_COLOUR('',#6200);
#6220=FILL_AREA_STYLE('',(#6210));
#6230=SURFACE_STYLE_FILL_AREA(#6220);
#6240=SURFACE_SIDE_STYLE('',(#6230));
#6250=SURFACE_STYLE_USAGE(.BOTH.,#6240);
#6260=PRESENTATION_STYLE_ASSIGNMENT((#6250));
#6270=STYLED_ITEM('',(#6260),#5960);
#6280=DRAUGHTING_MODEL('',(#6270),#6160);
#6290=CARTESIAN_POINT('',(-51.0852250000001,46.9797929999999,
76.1397374694365));
#6300=DIRECTION('',(0.,0.,-1.));
#6310=DIRECTION('',(1.,0.,0.));
#6320=AXIS2_PLACEMENT_3D('',#6290,#6300,#6310);
#6330=ITEM_DEFINED_TRANSFORMATION('RXM2D_1-5','',#6000,#6320);
#6340=APPLICATION_CONTEXT(' ');
#6350=APPLICATION_PROTOCOL_DEFINITION(' ','automotive_design',1998,#6340
);
#6360=PRODUCT_CONTEXT('',#6340,'mechanical');
#6370=PRODUCT_DEFINITION_CONTEXT('part definition',#6340,'design');
#6380=PRODUCT('RXM2D_1-5','RXM2D_1-5','',(#6360));
#6390=PRODUCT_RELATED_PRODUCT_CATEGORY('part',' ',(#6380));
#6400=PRODUCT_DEFINITION_FORMATION_WITH_SPECIFIED_SOURCE('','',#6380,
.BOUGHT.);
#6410=PRODUCT_DEFINITION('',' ',#6400,#6370);
#6420=PRODUCT_DEFINITION_SHAPE('','',#6410);
#6430=DIMENSIONAL_EXPONENTS(1.,0.,0.,0.,0.,0.,0.);
#6440=DIMENSIONAL_EXPONENTS(0.,0.,0.,0.,0.,0.,0.);
#6450=DIMENSIONAL_EXPONENTS(0.,0.,0.,0.,0.,0.,0.);
#6460=(LENGTH_UNIT() NAMED_UNIT(*) SI_UNIT(.MILLI.,.METRE.));
#6470=(NAMED_UNIT(*) PLANE_ANGLE_UNIT() SI_UNIT($,.RADIAN.));
#6480=(NAMED_UNIT(*) SI_UNIT($,.STERADIAN.) SOLID_ANGLE_UNIT());
#6490=(GEOMETRIC_REPRESENTATION_CONTEXT(3) 
GLOBAL_UNCERTAINTY_ASSIGNED_CONTEXT((#6500)) 
GLOBAL_UNIT_ASSIGNED_CONTEXT((#6460,#6470,#6480)) REPRESENTATION_CONTEXT
('',''));
#6500=UNCERTAINTY_MEASURE_WITH_UNIT(LENGTH_MEASURE(1.E-6),#6460,
'distance_accuracy_value','maximum gap value');
#6510=SHAPE_REPRESENTATION('',(#6000,#6320),#6490);
#6520=SHAPE_DEFINITION_REPRESENTATION(#6420,#6510);
#6530=(REPRESENTATION_RELATIONSHIP('','',#6180,#6510) 
REPRESENTATION_RELATIONSHIP_WITH_TRANSFORMATION(#6330) 
SHAPE_REPRESENTATION_RELATIONSHIP());
#6540=NEXT_ASSEMBLY_USAGE_OCCURRENCE('1','','RXM2D_1-5',#6410,#6080,'');
#6550=PRODUCT_DEFINITION_SHAPE('','',#6540);
#6560=CONTEXT_DEPENDENT_SHAPE_REPRESENTATION(#6530,#6550);
ENDSEC;
END-ISO-10303-21;
